Hợp âm bạn đang xem

Thứ hai, ngày 1/7/2019

Yêu cầu hợp âm safe and sound

HỢP ÂM GUITAR SỬ DỤNG

DM
AM
A
A7
EM
D
G
B7
F
GM

Bình luận hay


Ý kiến của bạn sẽ được biên tập trước khi đăng. Xin vui lòng gõ tiếng Việt có dấu!
  • Xin vui lòng gõ tiếng Việt có dấu
  • Tối thiểu 10 chữ
  • Không chứa liên kết

Thông tin bình luận

Xin nhập thông tin của bạn.(email được giữ kín)
  • Tên:

  • Email:

    blackcat_sniper

    - 2019/07/26

    Tớ cũng kết bài này, đang tập cho mấy bạn nữ hát. @@
    Bạn này chuẩn mấy cái lót câu hay cực.


    e/-------0h1-1--------------1---------------------------|
    B/-------3----------1-------1------------------------1--|
    G/-----2------------2-------0h2-2-2-0---0--------0------|
    D/---0-----------2--2-------3-----------0h2--2----------|
    A/-------------0------------3-----------3------3---3----|
    E/--------------------------x---------------------------|

    And here are the chords:

    Dm Am
    I remember tears streaming down your face
    F C
    When I said, I'll never let you go
    Dm Am F C
    When all those shadows almost killed your light
    Dm Am F C
    I remember you said, Don't leave me here alone
    Dm Am F pause
    But all that's dead and gone and passed tonight


    CHORUS:
    F C
    Just close your eyes
    G F
    The sun is going down
    C
    You'll be alright
    G F
    No one can hurt you now
    C
    Come morning light
    G F Am
    You and I'll be safe and sound

    Riff x2
    e|------0h1-1---------------------------------------|
    B|------3---------1---1---1--1--1--1-----------1----|
    G|--2---2-----2---2---0h2----2--0--0--------0-------|
    D|--0-0-------2-0-----3------3--3--0h2--2-----------|
    A|--0---------0-------3------3--3--3------3--3------|
    E|--------------------------------------------------|

    Dm Am F
    Don't you dare look out your window darling
    C
    Everything's on fire
    Dm Am F C
    The war outside our door keeps raging on
    Dm Am F C
    Hold onto this lullaby
    Dm Am F F
    Even when the music's gone gone

    CHORUS

    F C Am Dm
    Ooooh Oooooh Ahhhhh Ahhhhhh

    F C Am Dm
    Ooooh Oooooh Ahhhhh Ahhhhhh

    (This last chorus is picked... so you can play it like this or with the chords)
    e|-------------------------------------------------|
    B|--1---1---1---1-----1---1----3-------------------|
    G|--2---2---2---2-----0-----0--0----------0--------|
    D|--3--3---3---3---3--2--2-----0--0-----0----------|
    A|--3-----------------3-------------0h2------------|
    E|-----------------------------3-------------------|
    OR
    e|-------------------------------------------------|
    B|--1---1---1---1-----1---1----3-----3-------------|
    G|--2---2---2---2-----0-----0--0-----0-------------|
    D|--3--3---3---3---3--2--2-----0--0--0--0----------|
    A|--3-----------------3--------------2-------------|
    E|-----------------------------3-------------------|

    F C G
    Just close your eyes
    F C G
    You'll be alright
    F C
    Come morning light,
    G F Am
    You and I'll be safe and sound...

    Nguồn E-Chords.com

    Trả lời

    Thông tin bình luận

    Xin nhập thông tin của bạn.(email được giữ kín)
    • Tên:

    • Email:

  • starluz

    - 2019/07/26

    hehe. cảm ơn anh đã giúp đỡ.

    Trả lời
  • starluz

    - 2019/07/26

    coppy nhớ ghi nguồn nhé

    Trả lời
  • blackcat_sniper

    - 2019/07/26

    Đã edit nguồn!
    Tại thấy Mod hợp âm cực quá nên tớ thấy bài nào quen quen phụ tí thôi

    Trả lời
  • Tall

    - 2019/07/29

    copy nhớ ghi nguồn nhé b

    Trả lời

    starluz

    - 2019/07/26

    em hỏi tí. kái 0h1-1 với 0h2 là j thế ạ? e ms chơi ạ

    Trả lời

    Thông tin bình luận

    Xin nhập thông tin của bạn.(email được giữ kín)
    • Tên:

    • Email:

  • blackcat_sniper

    - 2019/07/29

    em đánh dây buông sau đó lấy ngón số 1 khõ mạnh vào phím 1 của dây đó.
    Cái đó gọi là "luyến"

    Trả lời