GuitarPro.Vn - Học Guitar Online - Diễn đàn Hàng Đầu về Guitar


User Tag List

Trả lời
 
Công cụ bài viết Kiểu hiển thị
  #1  
Cũ 26-01-13, 06:04 PM
tungnt101294 tungnt101294 đang ẩn
Thành Viên GuitarPro.VN
 
Level: Level: 1 - Class: None
EXP: 5/10 (50%)
SP: 5/10 (50%)
Số lần cộng|trừ: 0 lần
 
Tham gia ngày: Jan 2013
Bài gửi: 1
Thanks: 0
Thanked 0 Times in 0 Posts
Mentioned: 0 Post(s)
Tagged: 0 Thread(s)
Quoted: 0 Post(s)
Mặc định Cần giúp đỡ về tabs
Mọi người ơi! Em đọc 1 bản tabs bài Dạ Khúc của Jay Chou. Có 1 kí hiệu thế này 14\13p thì phải hiểu thế nào ạ?
Còn 1 điều nữa. Đó là đoạn chorus họ viết như sau:
Fm D# C# Cm Bdm
E]-----------| |------------| |-----------| |---------| |-------|
B]9--------9-| |-8------8---| |--6------6-| |-4-----4-| |2------|
G]----10-----| |----8-------| |------6----| |----3----| |----3--|
D]--10-------| |---8--------| |----6------| |---6-----| |---3---|
A]8------8---| |-6---6------| |--4----4---| |-3----3--| |1------|
E]-----------| |------------| |-----------| |---------| |-------|

C
E]----------|
B]-1------1-|
G]----0-----|
D]---2------|
A]-3----3---|
E]----------|
Em cũng thấy hơi bị khó hiểu. Mong mọi người giải thích dùm

+5 EXP

Lần sửa cuối bởi tungnt101294 với 26-01-13 lúc 06:13 PM
Trả lời với trích dẫn
Sponsored Links
Trả lời

Đánh dấu

Tags
cách đọc 1 bản tab, của, cần, dạ khúc, guitar, guitar pro, i miss you guitar pro, người

Công cụ bài viết
Kiểu hiển thị

Quyền viết bài
Bạn không thể gửi chủ đề mới
Bạn không thể gửi trả lời
Bạn không thể gửi file đính kèm
Bạn không thể sửa bài viết của mình

BB code đang Mở
Mặt cười đang Mở
[IMG] đang Mở
HTML đang Tắt

Chuyển đến


Múi giờ GMT +7. Hiện tại là 08:21 PM


Powered by vBulletin® Version 3.8.4
Copyright ©2000 - 2018, vBulletin Solutions, Inc.
GuitarPro.Vn