GuitarPro.Vn - Học Guitar Online - Diễn đàn Hàng Đầu về Guitar


User Tag List

Trả lời
 
Công cụ bài viết Kiểu hiển thị
  #1  
Cũ 02-10-11, 02:18 PM
Người Tình Người Tình đang ẩn
Thành Viên GuitarPro.VN
 
Level: Level: 1 - Class: None
EXP: 9/10 (90%)
SP: 5/10 (50%)
Số lần cộng|trừ: 0 lần
 
Tham gia ngày: Oct 2011
Bài gửi: 5
Thanks: 0
Thanked 0 Times in 0 Posts
Mentioned: 0 Post(s)
Tagged: 0 Thread(s)
Quoted: 0 Post(s)
Mặc định Nỗi đau xót xa (Minh Vương M4U)
Cao thủ nào viết giùm em tabs solo bài Nổi Đau Xót Xa của Minh Vương M4U.Em cảm ơn trước


Từng ngày qua trong lòng anh vẫn nhiều lúc mơ
Mỗi giấc mơ luôn có em trong vòng tay
Ngồi kề bên em cùng nhau ngắm sao lung linh
Thầm nguyện ước có nhau trọn đời

Và rồi em đi xa vòng tay của anh
Tình yêu giờ đã vụt mất
Như cánh chim cuối trời không nói thêm một lời
Bỏ lại con tim xót xa từng ngày

Từng giọt nước mắt đắng vẫn thấm ướt trên môi
Vì trong lòng anh chỉ có yêu một mình em thôi
Cũng không thể xóa hết nỗi buồn, cũng không thể xóa hết nỗi nhớ
Trong con tim anh vụn vỡ

Phải làm sao để quên đi hết những ký ức năm xưa
Dù anh đã cố níu kéo bước em trong mưa
Thôi đành ôm riêng mình anh nỗi xót xa từ đây.....





+5 EXP
Trả lời với trích dẫn
Sponsored Links
  #2  
Cũ 10-10-11, 10:51 PM
Avatar của tranngocduy_91
tranngocduy_91 tranngocduy_91 đang ẩn
Thành Viên GuitarPro.VN
 
Level: Level: 1 - Class: None
EXP: 6/10 (60%)
SP: 6/10 (60%)
Số lần cộng|trừ: 1 lần
 
Tham gia ngày: Oct 2011
Đến từ: Nha Tran City
Bài gửi: 3
Thanks: 0
Thanked 3 Times in 1 Post
Mentioned: 0 Post(s)
Tagged: 0 Thread(s)
Quoted: 0 Post(s)
Mặc định
Nỗi đau xót xa (Minh Vương M4U)
[U]Capo1[/UTừng ngày qua[Em] trong lòng anh vẫn[Bm] như mơ
Mỗi giấc mơ[D] luôn có em trong vòng tay[G]
Nguyện kề bên em[Em] cùng nhau ngắm sao[Bm] lung linh
Thầm nguyện ước[C] có nhau[D] trọn đời[Em]

Và rồi em đi[Em] xa vòng tay của anh[Bm]
Tình yêu[C] giờ đã[D] vụt mất[G]
Như cánh chim[Em] cuối trời , không nói thêm[Bm] một lời
Để lại con tim[C] xót xa[D] từng ngày[Em]

Từng giọt nước mắt[C] đẫm vẫn thấm ướt[D] trên môi
Vì trong lòng anh[Bm] chỉ có yêu một mình[Em] em thôi
Cũng không thể xóa[C] hết nỗi buồn
Cũng không thể xóa[D] hết nỗi nhớ
Trong con[Bm] tim anh vụn vỡ[Em]

Phải làm sao để quên[C] đi hết những kí ức[D] năm xưa ?
Dù anh đã cố[Bm] níu kéo bước em[Em] trong mưa
Thôi đành ôm[C] riêng mình anh nỗi xót[D] xa từ đây[Em]…
[/B]

capo8
Từng ngày qua[Am] trong lòng anh vẫn[Em] như mơ
Mỗi giấc mơ[G] luôn có em trong vòng tay[C]
Nguyện kề bên em[Am] cùng nhau ngắm sao[Em] lung linh
Thầm nguyện ước[F] có nhau trọn đời[Am]

(tương tự)
Và rồi em đi xa vòng tay của anh
Tình yêu giờ đã vụt mất
Như cánh chim cuối trời , không nói thêm một lời
Để lại con tim xót xa từng ngày

Từng giọt nước mắt[Am] đẫm vẫn thấm ướt[Em] trên môi
Vì trong lòng anh[G] chỉ có yêu một mình[C] em thôi
Cũng không thể xóa[Am] hết nỗi buồn
Cũng không thể xóa[Em] hết nỗi nhớ
Trong con[G] tim anh vụn vỡ[C]

Phải làm sao để quên[Am] đi hết những kí ức[Em] năm xưa ?
Dù anh đã cố[G] níu kéo bước em[Am] trong mưa
Thôi đành ôm[F] riêng mình anh nỗi xót[G] xa từ đây[Am]...


+5 EXP
 
Điểm cho tranngocduy_91: +1 SP
Người cho điểm: Phan Đức Hòa
Lý do: Unknow Reason
Trả lời với trích dẫn
abcdefghabcdefgh - 12:07 AM 11-10-11
zẫy là bài này đánh điệu gì zậy anh?
willbecome - 09:27 AM 02-03-12
bạn thử chơi điệu boston bass 3 21 3 21 3 21 3 - hay slow rock bass 3 2 3 1 3 2 3 !!!
 
The Following 3 Users Say Thank You to tranngocduy_91 For This Useful Post:
Envil (11-10-11), Hạc Nhỏ (14-10-11), Office.pham (10-10-11)
  #3  
Cũ 14-11-11, 07:57 AM
0nglo0o 0nglo0o đang ẩn
Thành Viên GuitarPro.VN
 
Level: Level: 1 - Class: None
EXP: 0/10 (0%)
SP: 5/10 (50%)
Số lần cộng|trừ: 0 lần
 
Tham gia ngày: Jan 2011
Bài gửi: 2
Thanks: 0
Thanked 0 Times in 0 Posts
Mentioned: 0 Post(s)
Tagged: 0 Thread(s)
Quoted: 0 Post(s)
Mặc định
Có bản gp không anh e nhìn mấy cài này ko hiểu

Trả lời với trích dẫn
  #4  
Cũ 11-12-11, 11:40 AM
Nasper Nasper đang ẩn
Thành Viên GuitarPro.VN
 
Level: Level: 1 - Class: None
EXP: 3/10 (30%)
SP: 5/10 (50%)
Số lần cộng|trừ: 0 lần
 
Tham gia ngày: Jul 2010
Bài gửi: 2
Thanks: 0
Thanked 1 Time in 1 Post
Mentioned: 0 Post(s)
Tagged: 0 Thread(s)
Quoted: 0 Post(s)
Mặc định
Ai soạn giúp em intro bài này với

+1 EXP
Trả lời với trích dẫn
Nasper - 07:14 PM 14-12-11
ko ai giup e ah
 
  #5  
Cũ 02-01-12, 12:05 AM
Pé Mít Pé Mít đang ẩn
Thành Viên GuitarPro.VN
 
Level: Level: 2 - Class: None
EXP: 14/20 (70%)
SP: 5/10 (50%)
Số lần cộng|trừ: 0 lần
 
Tham gia ngày: Sep 2011
Bài gửi: 14
Thanks: 4
Thanked 1 Time in 1 Post
Mentioned: 0 Post(s)
Tagged: 0 Thread(s)
Quoted: 0 Post(s)
Mặc định
Intro này k hay Ai mò giúp intro hay chút nào

Trả lời với trích dẫn
The Following User Says Thank You to Pé Mít For This Useful Post:
mario (26-01-12)
  #6  
Cũ 07-03-12, 10:02 AM
anhbiqb anhbiqb đang ẩn
Thành Viên GuitarPro.VN
 
Level: Level: 4 - Class: None
EXP: 7/40 (17.5%)
SP: 5/10 (50%)
Số lần cộng|trừ: 0 lần
 
Tham gia ngày: Sep 2010
Bài gửi: 64
Thanks: 3
Thanked 5 Times in 4 Posts
Mentioned: 0 Post(s)
Tagged: 0 Thread(s)
Quoted: 0 Post(s)
Mặc định
Help ! intro not found

Trả lời với trích dẫn
  #7  
Cũ 18-03-12, 08:05 PM
whatever whatever đang ẩn
Thành Viên GuitarPro.VN
 
Level: Level: 1 - Class: None
EXP: 2/10 (20%)
SP: 5/10 (50%)
Số lần cộng|trừ: 0 lần
 
Tham gia ngày: Mar 2012
Bài gửi: 1
Thanks: 0
Thanked 0 Times in 0 Posts
Mentioned: 0 Post(s)
Tagged: 0 Thread(s)
Quoted: 0 Post(s)
Mặc định Giúp em điền tab bài Nỗi đau xót xa -Minh Vương
Em thấy bạn trong video này đánh hay quá mà bạn ý ko viết đc tab mong cao nhân vào giúp em cái



+2 EXP
Trả lời với trích dẫn
mr.chicanh - 01:37 PM 30-03-12
Hay qua, cao thu T35 day, nhung hinh nhu anh ay tu chế cách danh thoi
 
  #8  
Cũ 24-03-12, 10:18 AM
anhbiqb anhbiqb đang ẩn
Thành Viên GuitarPro.VN
 
Level: Level: 4 - Class: None
EXP: 7/40 (17.5%)
SP: 5/10 (50%)
Số lần cộng|trừ: 0 lần
 
Tham gia ngày: Sep 2010
Bài gửi: 64
Thanks: 3
Thanked 5 Times in 4 Posts
Mentioned: 0 Post(s)
Tagged: 0 Thread(s)
Quoted: 0 Post(s)
Mặc định
Tình hinhf là tìm mãi mà khong ra bài ni, không bit làm sao đây, ai giúp cái nào @@

+1 EXP
Trả lời với trích dẫn
  #9  
Cũ 31-03-12, 08:34 PM
Avatar của Cupidonline
Cupidonline Cupidonline đang ẩn
Mod box Yêu cầu hợp âm
 
Level: Level: 18 - Class: MASTER
EXP: 10/180 (5.6%)
SP: 237/Full (100%)
Số lần cộng|trừ: 226 lần
 
Tham gia ngày: Jun 2010
Đến từ: Hồ chí minh
Bài gửi: 363
Thanks: 472
Thanked 710 Times in 303 Posts
Mentioned: 0 Post(s)
Tagged: 0 Thread(s)
Quoted: 4 Post(s)
Gửi tin nhắn qua Yahoo! tới Cupidonline
Mặc định
định viết GP cho bạn mà mò hoài không biết sử dụng guitar pro 6 @@

+1 EXP
__________________
yêu cầu hợp âm
Viber - Line - SMS: 0906059161
Fb: Duy Uma
Trả lời với trích dẫn
  #10  
Cũ 31-03-12, 10:14 PM
Avatar của metallica_k23
metallica_k23 metallica_k23 đang ẩn
Thành Viên GuitarPro.VN
 
Level: Level: 3 - Class: None
EXP: 2/30 (6.7%)
SP: 7/10 (70%)
Số lần cộng|trừ: 2 lần
 
Tham gia ngày: Nov 2010
Đến từ: Tuyên Quang 100%!
Bài gửi: 20
Thanks: 1
Thanked 41 Times in 11 Posts
Mentioned: 0 Post(s)
Tagged: 0 Thread(s)
Quoted: 0 Post(s)
Gửi tin nhắn qua Yahoo! tới metallica_k23
Mặc định
Check thử ver. của tớ nha cậu. Standard Tuning. Tông của Minh Vương Capo fr.1.

Intro. Pt.1
Quote:
---------------------0--------------0----------------------------------------------------------------------------
-----------0----3-----------------------3---0-------------------------0----3------------3-----0------------------------
------0-------------------------------------------2----------0----2----------------------------------2-----0-------------
-------------------------------------------------------0------------------------------------------------------------
-----------------------------3----------------------------------------------------2----------------------------------
-------------------------------------------------------------------------------------------------------------------0----

--------------------------------------------------------------------------------------------------------------------.
----------------------0-----------------------------------0--------------------------------------------------------.
----0---0----0~2-----------------------0----0---0~2------------------------------------------------------------.
---------------------------2-----------------------------------2/4---------4---4~5-----4----0--------------2---.
-------------------------------3---------------------------------------5----------------------------------2--------.
------------------------------------------------------------------------------------------------------0--------------.
Intro.Pt.2
Quote:
---------------------0--------------0--------------------------------------------0~2-----------0~2------------0----
-----------0----3-----------------------3---0-------------------------0----3--------------------------3---0------------
------0-------------------------------------------2----------0----2----------------------------------------------------
-------------------------------------------------------0------------------------------------------------------------
-----------------------------3-------------------------------------------------------------2-------------------------
-------------------------------------------------------------------------------------------------------------------------0-

-----------5/7\5----3-----0----3----3/5----2-------------2------3/5\3-----0----------------------
------0------------- 0---------------------------------3------------------------------------------
---------------------------------------------------------------------------------------------
---------------------2-----------------------------0------------------------------------------ 2-
---------------------3----------------------------------------------------------------------2-
---------------------------------------------------------------------------------------0------
Rythm
Em Bm
Từng ngày qua trong lòng anh vẫn như mơ
D G
Mỗi giấc mơ luôn có em trong vòng tay
Em Bm
Ngồi kề bên em cùng nhau ngắm sao lung linh
C D Em
Thầm nguyện ước có nhau trọn đời...

Em Bm
Và rồi em đi xa vòng tay của anh
C D G
Tình yêu giờ đã vụt mất
Em Bm
Như cánh chim cuối trời không nói thêm một lời
C D Em
Bỏ lại con tim xót xa từng ngày

Interlude
Quote:
---3--2--3-------------------0---2-----------2~3---2------------------0-------
------------------------0-----------------2------------------------3/5--5------
---------------------------------------3------------------------4--------------
-------------------2--------------0------------------------4--------------------
---------------3--------------------------------------2--------------------------
--------------------------------------------------------------------------0------
Chorus
C D
Từng giọt nước mắt đắng vẫn thấm ướt trên môi
Bm Em
Vì trong lòng anh chỉ có yêu một mình em thôi
C D
Cũng không thể xóa hết nỗi buồn, cũng không thể xóa hết nỗi nhớ
Bm Em
Trong con tim anh vụn vỡ
C D
Phải làm sao để quên đi hết những ký ức năm xưa
Bm Em
Dù anh đã cố níu kéo bước em trong mưa
C D (Bm) Em
Thôi đành ôm riêng mình anh nỗi xót xa........ ..... từ đây.....

Review:


+5 EXP
 
Điểm cho metallica_k23: +1 SP
Người cho điểm: Envil
Lý do: Unknow Reason
Trả lời với trích dẫn
nnhd2212 - 09:42 PM 16-04-12
hay quá bạn ơi, có tab nguyên bài của bạn ko cho mình xin
wizardrypro - 09:17 AM 25-08-12
Hay quá xem clip mà không ngờ anh cũng post ở đây luôn. Nếu được anh hướng dẫn cả cách đệm nhé, nhìn đập đập là thấy mê rồi. Em góp ý là 1 kiểu cả bài thế này thì hơi đơn điệu tí, nếu có kiểu đệm khác chen vô hoặc quạt chả một tí thì sẽ hay hơn ^^
baron_trí - 08:41 PM 01-09-12
hay đấy
 
The Following 5 Users Say Thank You to metallica_k23 For This Useful Post:
Envil (26-04-12), nguyentranhieu (01-10-13), nhok_dau_to (01-09-12), nnhd2212 (16-04-12), wizardrypro (25-08-12)
Trả lời

Đánh dấu

Tags
intro noi dau xot xa, noi dau xot xa gp5, noi dau xot xa hop am, noi dau xot xa tab, tab intro noi dau xot xa, tab noi dau xot xa, tab noi dau xot xa gp5

Công cụ bài viết
Kiểu hiển thị

Quyền viết bài
Bạn không thể gửi chủ đề mới
Bạn không thể gửi trả lời
Bạn không thể gửi file đính kèm
Bạn không thể sửa bài viết của mình

BB code đang Mở
Mặt cười đang Mở
[IMG] đang Mở
HTML đang Tắt

Chuyển đến


Múi giờ GMT +7. Hiện tại là 11:34 PM


Powered by vBulletin® Version 3.8.4
Copyright ©2000 - 2018, vBulletin Solutions, Inc.
GuitarPro.Vn