GuitarPro.Vn - Học Guitar Online - Diễn đàn Hàng Đầu về Guitar


User Tag List

Trả lời
 
Công cụ bài viết Kiểu hiển thị
  #1  
Cũ 15-06-10, 10:53 PM
Avatar của dayfly84
dayfly84
Khách
 
Level: 0 - Class: None
EXP: 0/0 (0%)
SP: 0/10 (0%)
Số lần cộng|trừ: 0 lần
 
Bài gửi: n/a
Mentioned: Post(s)
Tagged: Thread(s)
Quoted: Post(s)
Mặc định giúp em sử dụng capo ngan 5 nhé
em định dùng capo kẹp ở ngăn 5 cho dễ đánh các hợp am và cho đỡ đau tay.anh chị lam ơn giúp em thành lập các thế bấm Am -Dm- E7,C -F- G7 (ca bo dang kep o ngan 5) nhé.em xin chan thành cảm ơn.

+2 EXP
Trả lời với trích dẫn
  #2  
Cũ 15-06-10, 11:08 PM
Avatar của huyha1993tg
huyha1993tg huyha1993tg đang ẩn
Đại Ka
 
Level: Level: 12 - Class: Advanced
EXP: 42/120 (35%)
SP: 93/100 (93%)
Số lần cộng|trừ: 34 lần
 
Tham gia ngày: Jan 2010
Đến từ: thế giới thứ 2.......
Bài gửi: 377
Thanks: 188
Thanked 1,023 Times in 240 Posts
Mentioned: 0 Post(s)
Tagged: 1 Thread(s)
Quoted: 1 Post(s)
Mặc định
tính từ cái capo ra nhé

Am thì thế này:
|-------------------------
|-------------------------
|-------------------------
|-------------------------
|-------------2-----------
|-------------2-----------
C thì thế này:
|-----3--------------------
|-----3--------------------
|-----3----4----------------
|-----3---------5-----------
|-----3---------5-----------
|-----3--------------------
Dm thì :
|--------------------------
|-------1------------------
|-------------2------------
|-------------2------------
|-------------------------
|-------------------------
E7 thì:
|----2---------------------
|----2-----------5----------
|----2---------------------
|----2-----------5----------
|----2---------------------
|----2---------------------

F thì:
|-------------------------
|---1----------------------
|-------------------------
|---------2----------------
|---------------3----------
|-------------------------

G7 thì:
|----1---------------------
|-----------2--------------
|-------------------------
|-------------------------
|-------------------------
|-----------2--------------

mà hình như chẳng dễ hơn mấy thì phải

+5 EXP
__________________
Từ nay mỗi người mỗi ngã, nhưng trong tim anh vẫn luôn có hình bóng của em.

[SIGPIC][/SIGPIC]

(\,,,/)..(\,,,/) Đỏ ... Là màu của máu , màu của uất hận bi ai

( ' ; ' )( ' ; ' ) Đen...Là màu của bóng tối , màu của tang tóc chia ly
(,,)-(,,)(,,)-(,,) Nhưng tuổi ta vẫn có màu Xanh ..... màu của hi vọng
Trả lời với trích dẫn
The Following 3 Users Say Thank You to huyha1993tg For This Useful Post:
EDX (16-06-10), LEO (16-06-10), MarkNguyen (21-09-10)
  #3  
Cũ 15-06-10, 11:56 PM
Avatar của dayfly84
dayfly84
Khách
 
Level: 0 - Class: None
EXP: 0/0 (0%)
SP: 0/10 (0%)
Số lần cộng|trừ: 0 lần
 
Bài gửi: n/a
Mentioned: Post(s)
Tagged: Thread(s)
Quoted: Post(s)
Mặc định
troi,anh bam the khó qua vậy,em dựa vào cái ben nhac ly thì ra mo` nhu vay,anh xem giup có dc ko nha.
1 the bấm miễn sao có 3 nốt nhu yeu cấu la sẽ ra dc hop âm đó phải ko anh.(Vd LA thứ :miễn bấm lam sao có La-do-mi, Do truong = Do-mi-sol...).Vấn đề này em cung ko hieu lam,vài vì dây đàn tới 6 dây,nếu tính theo quy luat do nhìu khi 1 thế bam có tới 2,3 nốt Do ,hoac La trong do(tui no nam o tren day Trầm và day bổng).Mình ko biết phải lấy cái nốt nằm o dây nào để dưa vo bộ 3 (1,3,5) cho đúng.
Am:
-----------------------------
-----------------------------
-----------------------------
----------2------------------
-----------------------------
-----------------------------
Dm:
-----------------------------
-----------2-----------------
-------------------3---------
-------------------3---------
-----------------------------
-----------------------------
E:
-----------2----------------
----------------------------
----------------------------
---------------------------
-----------2---------------
C:
------------------3-------
--------------------------
--------------------------
--------------------------
-----------2-------------
------------------3------
F:
-------------------------
-------------------------
-------------------------
-----------2-------------
-----------------3-------
-------------------------
G:
-------------------------
-------------------3------
----------2----------------
--------------------------
--------------------------
--------------------------
con` E7 va D7, g7 thi chiu ,em doc phan cau tao hop am ko hieu cho do
anh kiem tra giup em may the bam tren co dung ko nhe
khi ma co capo ngăn 5 thi cac day buon the nay`:
A]---------------------------
E]---------------------------
C]--------------------------
G]--------------------------
D]-----------------------------
A]----------------------------

+5 EXP
Trả lời với trích dẫn
The Following 2 Users Say Thank You to For This Useful Post:
EDX (16-06-10), LEO (16-06-10)
  #4  
Cũ 16-06-10, 12:27 AM
Avatar của huyha1993tg
huyha1993tg huyha1993tg đang ẩn
Đại Ka
 
Level: Level: 12 - Class: Advanced
EXP: 42/120 (35%)
SP: 93/100 (93%)
Số lần cộng|trừ: 34 lần
 
Tham gia ngày: Jan 2010
Đến từ: thế giới thứ 2.......
Bài gửi: 377
Thanks: 188
Thanked 1,023 Times in 240 Posts
Mentioned: 0 Post(s)
Tagged: 1 Thread(s)
Quoted: 1 Post(s)
Mặc định
về phần hợp âm 7 thì hợp âm 7 được cấu tạo bởi 1 hợp âm thường ( trưởng hoặc thứ) và thêm 1 nốt ở bậc 7 của chủ âm . Vd G7 thì gồm hợp âm G và nốt F.
thông thường thì âm bass ( âm trầm) sẽ là chủ âm.
hợp âm guitar rất phong phú và nhiều thế bấm do ta có thể sử dung hợp âm đảo Vd: C là C-E-G thì có thể đảo thành E-G-C. 1 hợp âm còn có thể thay đổi âm bass Vd Am với bass G.

+4 EXP
__________________
Từ nay mỗi người mỗi ngã, nhưng trong tim anh vẫn luôn có hình bóng của em.

[SIGPIC][/SIGPIC]

(\,,,/)..(\,,,/) Đỏ ... Là màu của máu , màu của uất hận bi ai

( ' ; ' )( ' ; ' ) Đen...Là màu của bóng tối , màu của tang tóc chia ly
(,,)-(,,)(,,)-(,,) Nhưng tuổi ta vẫn có màu Xanh ..... màu của hi vọng
Trả lời với trích dẫn
The Following 2 Users Say Thank You to huyha1993tg For This Useful Post:
EDX (16-06-10), LEO (16-06-10)
  #5  
Cũ 16-06-10, 01:15 AM
Avatar của LEO
LEO LEO đang ẩn
Top 10 Idol - Live room's Operator
 
Level: Level: 54 - Class: Professional
EXP: 135/540 (25%)
SP: 161/200 (80.5%)
Số lần cộng|trừ: 71 lần
 
Tham gia ngày: Feb 2010
Đến từ: Đường Giáp Bát , Hoàng Mai , Hà Nội
Bài gửi: 3,192
Thanks: 4,403
Thanked 5,089 Times in 830 Posts
Mentioned: 0 Post(s)
Tagged: 1 Thread(s)
Quoted: 5 Post(s)
Mặc định
@huyha1993tg: Một vài hợp âm em viết sai đó nhá...xem lại đi à...


Thực ra vấn đề này cũng khá là đơn giản thôi...
Chắc bạn biết cách bấm Am -Dm- E7,C -F- G7 khi chưa kẹp capo là như thế nào rồi chứ...
Mình sử dụng nguyên tắc tịnh tiến thôi...
Như bạn biết :
C 1cung D 1cung E 1/2cung F 1cung G 1cung A 1cung B 1/2cung C


Từ ko có capo lên có capo khoang 5 là các bạn tịnh tiến lên 2,5 cung ...


- Hợp âm Am tịnh tiến thành Dm :
Dm thì :
|-------------------------
|-------1-----------------
|-------------2-----------
|-------------2-----------
|-------------------------
|-------------------------
Bạn để ý thấy cách bấm nó giống như hợp âm Am khi chưa có capo chứ...!!!

-Hợp âm Dm thành Gm
Hợp âm Gm ta không bàn tới ở đây mà là G7
Vậy sẽ là D7 thành G7...
Hợp âm D7 khi chưa có capo :
|-------------2----------
|-------1----------------
|-------------2----------
|------------------------
|------------------------
|------------------------
Tịnh tiến ...có capo khoang 5 sẽ ra hợp âm G7 ...cách bấm tương tự như D7 lúc trc khi có capo...
|-------------2----------
|-------1----------------
|-------------2----------
|------------------------
|------------------------
|------------------------

-Hợp âm E7 thành A7
Tượng tự muốn là Am thì phải là Em thành Am...
Cách bấm Am khi kẹp capo khoang 5 nè...
|-------------------------
|-------------------------
|-------------------------
|-------------2-----------
|-------------2-----------
|-------------------------

-Hợp âm C thành F
Cái này đơn giản rồi...
Hợp âm F khi có capo
|-------------------------
|---1---------------------
|-------------------------
|---------2---------------
|---------------3---------
|-------------------------

-Hợp âm G thành C (khi có capo)
|-----3--------------------
|-----3--------------------
|-----3----4---------------
|-----3---------5----------
|-----3---------5----------
|-----3--------------------

-Hợp âm còn lại , đó là E7 khi có capo
Riêng cái này suy luận khác chút...
Bạn lấy nốt E hạ xuống 2,5 cung sẽ ra nốt B
Vậy cách bấm của E7 (khi có capo) sẽ giống với B7 (khi chưa có capo)...
|-----2--------------------
|-----2-----4--------------
|-----2--------------------
|-----2-----4--------------
|-----2--------------------
|-----2--------------------


Chúc bạn thành công...!!!LEO!



+5 EXP
__________________

Hotline tư vấn mua đàn và học đàn guitar : 0169.678.1258
Địa chỉ : Số 44 ngõ 221 đường Giáp Bát , Hoàng Mai , Hà Nội
Website : Nhacculeo.com
Trả lời với trích dẫn
The Following 4 Users Say Thank You to LEO For This Useful Post:
ai_pro (20-06-10), dangan (04-10-10), EDX (16-06-10), StupidGuitar (16-06-10)
  #6  
Cũ 16-06-10, 09:27 AM
Avatar của StupidGuitar
StupidGuitar StupidGuitar đang ẩn
Thành Viên GuitarPro.VN
 
Level: Level: 4 - Class: None
EXP: 26/40 (65%)
SP: 2/10 (20%)
Số lần cộng|trừ: 1 lần
 
Tham gia ngày: May 2010
Đến từ: SPAM CITADEL
Bài gửi: 82
Thanks: 45
Thanked 60 Times in 31 Posts
Mentioned: 0 Post(s)
Tagged: 0 Thread(s)
Quoted: 0 Post(s)
Mặc định
Có cái Am trên kia capo ngăn 5 mà sai hết à

5----------------
5----------------
5---------------
5-------7--------
5-------7--------
5----------------

+2 EXP
__________________
Chứ ký thì phải ký cái gì nhỉ ?
Trả lời với trích dẫn
  #7  
Cũ 16-06-10, 12:24 PM
Avatar của Mèo Ú
Mèo Ú Mèo Ú đang ẩn
Mod box yêu cầu hợp âm và thư viện hợp âm.
 
Level: Level: 14 - Class: Professional
EXP: 98/140 (70%)
SP: 102/200 (51%)
Số lần cộng|trừ: 72 lần
 
Tham gia ngày: Feb 2010
Bài gửi: 716
Thanks: 352
Thanked 1,463 Times in 428 Posts
Mentioned: 0 Post(s)
Tagged: 0 Thread(s)
Quoted: 0 Post(s)
Mặc định
hic, có j đâu mà phải khổ sở thế nhỉ? Chuyển capo lên cung 5 thì đưa tất cả về Em mà bấm là ra vòng Am

+1 EXP
__________________
Cute vô đối, hí hí

CLB guitar Lê Nguyễn Trần cơ sở tại Cầu Giấy:
Tuyển sinh các khóa guitar cơ bản
Địa chỉ: p501-CT1 Nam Cường-cuối ngõ 234 Hoàng Quốc Việt
Liên hệ : Mèo Ú - 0916 404 998
YH : xuanthuy_aponlong
Mail: thuytruong182@gmail.com
http://www.facebook.com/xuanthuy.aponlong
http://www.youtube.com/user/MeoUGuitar
Trả lời với trích dẫn
The Following User Says Thank You to Mèo Ú For This Useful Post:
LEO (19-06-10)
  #8  
Cũ 21-06-10, 07:18 AM
Avatar của Henry Le
Henry Le Henry Le đang ẩn
Cựu Admin
 
Level: Level: 16 - Class: Advanced
EXP: 41/160 (25.6%)
SP: 76/100 (76%)
Số lần cộng|trừ: 26 lần
 
Tham gia ngày: Jan 2010
Đến từ: Helsinki
Bài gửi: 602
Thanks: 339
Thanked 931 Times in 274 Posts
Mentioned: 0 Post(s)
Tagged: 0 Thread(s)
Quoted: 2 Post(s)
Mặc định
Đơn giản: Cứ tưởng tượng như kẹp capo là y như ta lên sai dây đàn!
Kẹp ngăn 1 lên 1/2 cung,...... 2 lên 1 cung, 3 lên 1.5 cung,......
Cứ thế mà tính ra! Nhưng capo chủ yếu đẹm hát ta dùng chuyển từ tông C, G lên cao hơn chứ ai chơi chuyển kì quặc thế ???

+3 EXP
Trả lời với trích dẫn
Trả lời

Đánh dấu

Tags
am kep capo 5 se ra sao, cach bam hop am voi capo, cach kep capo, cach su dung capo guitar, dieu capo 5 guitar, guitar, hợp am, hop am d7 ngan 5

Công cụ bài viết
Kiểu hiển thị

Quyền viết bài
Bạn không thể gửi chủ đề mới
Bạn không thể gửi trả lời
Bạn không thể gửi file đính kèm
Bạn không thể sửa bài viết của mình

BB code đang Mở
Mặt cười đang Mở
[IMG] đang Mở
HTML đang Tắt

Chuyển đến

Chủ đề tương tự
Chủ đề Người khởi xướng chủ đề Diễn đàn Trả lời Bài cuối
Fingerstyle - nghệ thuật chơi guitar huyha1993tg Fingerstyle 19 05-09-14 09:27 PM
Một số thủ pháp trong việc sử dụng hợp âm huyha1993tg Đệm Hát 12 16-04-12 01:42 PM
Capo toàn tập romance Chế tác,lựa chọn,sử dụng,bảo quản nhạc cụ 4 26-10-11 03:46 PM
Chiêu hay giúp tìm lại laptop bị đánh cắp. Long Phạm Các phần mềm khác 0 02-09-11 10:10 AM


Múi giờ GMT +7. Hiện tại là 09:36 PM


Powered by vBulletin® Version 3.8.4
Copyright ©2000 - 2018, vBulletin Solutions, Inc.
GuitarPro.Vn